  0
SECTION
  2
HEADER
  9
$ACADVER
  1
AC1009
  9
$EXTMAX
 10
470.0
 20
640.0
 30
0.0
  9
$EXTMIN
 10
0.0
 20
0.0
 30
0.0
  9
$INSUNITS
 70
     4
  9
$LUNITS
 70
     2
  9
$LUPREC
 70
     4
  9
$MEASUREMENT
 70
     1
  0
ENDSEC
  0
SECTION
  2
TABLES
  0
TABLE
  2
LAYER
 70
     1
  0
LAYER
  2
0
 70
     0
 62
     7
  6
Continuous
  0
LAYER
  2
LAYER1
 70
     0
 62
     7
  6
Continuous
  0
ENDTAB
  0
TABLE
  2
APPID
 70
     1
  0
APPID
  2
ACAD
 70
     0
  0
ENDTAB
  0
ENDSEC
  0
SECTION
  2
ENTITIES
  0
LINE
  8
LAYER1
 10
0.0
 20
0.0
 30
0.0
 11
400.0
 21
0.0
 31
0.0
  0
LINE
  8
LAYER1
 10
400.0
 20
0.0
 30
0.0
 11
400.0
 21
600.0
 31
0.0
  0
LINE
  8
LAYER1
 10
400.0
 20
600.0
 30
0.0
 11
0.0
 21
600.0
 31
0.0
  0
LINE
  8
LAYER1
 10
0.0
 20
0.0
 30
0.0
 11
0.0
 21
600.0
 31
0.0
  0
CIRCLE
  8
LAYER1
 10
49.6
 20
26.95
 30
0.0
 40
5.5
  0
CIRCLE
  8
LAYER1
 10
49.6
 20
26.95
 30
0.0
 40
0.05
  0
CIRCLE
  8
LAYER1
 10
200.0
 20
26.9500000000002
 30
0.0
 40
5.5
  0
CIRCLE
  8
LAYER1
 10
200.0
 20
26.9500000000002
 30
0.0
 40
0.05
  0
CIRCLE
  8
LAYER1
 10
200.0
 20
26.9500000000002
 30
0.0
 40
3.15
  0
CIRCLE
  8
LAYER1
 10
350.4
 20
26.95
 30
0.0
 40
5.5
  0
CIRCLE
  8
LAYER1
 10
350.4
 20
26.95
 30
0.0
 40
0.05
  0
CIRCLE
  8
LAYER1
 10
49.6
 20
26.95
 30
0.0
 40
3.15
  0
CIRCLE
  8
LAYER1
 10
350.4
 20
26.95
 30
0.0
 40
3.15
  0
LINE
  8
LAYER1
 10
450.0
 20
0.0
 30
0.0
 11
470.0
 21
0.0
 31
0.0
  0
LINE
  8
LAYER1
 10
470.0
 20
0.0
 30
0.0
 11
470.0
 21
600.0
 31
0.0
  0
LINE
  8
LAYER1
 10
470.0
 20
600.0
 30
0.0
 11
450.0
 21
600.0
 31
0.0
  0
LINE
  8
LAYER1
 10
450.0
 20
600.0
 30
0.0
 11
450.0
 21
0.0
 31
0.0
  0
CIRCLE
  8
LAYER1
 10
460.0
 20
590.0
 30
0.0
 40
1.2000000000001
  0
CIRCLE
  8
LAYER1
 10
460.0
 20
445.0
 30
0.0
 40
1.2000000000001
  0
CIRCLE
  8
LAYER1
 10
460.0
 20
300.0
 30
0.0
 40
1.2000000000001
  0
CIRCLE
  8
LAYER1
 10
460.0
 20
155.0
 30
0.0
 40
1.2000000000001
  0
CIRCLE
  8
LAYER1
 10
460.0
 20
10.0
 30
0.0
 40
1.2000000000001
  0
LINE
  8
LAYER1
 10
0.0
 20
620.0
 30
0.0
 11
400.0
 21
620.0
 31
0.0
  0
LINE
  8
LAYER1
 10
400.0
 20
620.0
 30
0.0
 11
400.0
 21
640.0
 31
0.0
  0
LINE
  8
LAYER1
 10
400.0
 20
640.0
 30
0.0
 11
0.0
 21
640.0
 31
0.0
  0
LINE
  8
LAYER1
 10
0.0
 20
640.0
 30
0.0
 11
0.0
 21
620.0
 31
0.0
  0
LINE
  8
LAYER1
 10
17.0
 20
625.5
 30
0.0
 11
33.0
 21
625.5
 31
0.0
  0
LINE
  8
LAYER1
 10
20.0
 20
640.0
 30
0.0
 11
30.0
 21
640.0
 31
0.0
  0
LINE
  8
LAYER1
 10
17.0
 20
625.5
 30
0.0
 11
17.0
 21
633.5
 31
0.0
  0
LINE
  8
LAYER1
 10
33.0
 20
625.5
 30
0.0
 11
33.0
 21
633.5
 31
0.0
  0
LINE
  8
LAYER1
 10
20.0
 20
640.0
 30
0.0
 11
20.0000000000001
 21
633.5
 31
0.0
  0
LINE
  8
LAYER1
 10
30.0
 20
640.0
 30
0.0
 11
30.0
 21
633.5
 31
0.0
  0
LINE
  8
LAYER1
 10
30.0
 20
633.5
 30
0.0
 11
33.0
 21
633.5
 31
0.0
  0
LINE
  8
LAYER1
 10
17.0
 20
633.5
 30
0.0
 11
20.0000000000001
 21
633.5
 31
0.0
  0
LINE
  8
LAYER1
 10
67.0
 20
625.5
 30
0.0
 11
83.0
 21
625.5
 31
0.0
  0
LINE
  8
LAYER1
 10
70.0
 20
640.0
 30
0.0
 11
80.0
 21
640.0
 31
0.0
  0
LINE
  8
LAYER1
 10
67.0
 20
625.5
 30
0.0
 11
67.0
 21
633.5
 31
0.0
  0
LINE
  8
LAYER1
 10
83.0
 20
625.5
 30
0.0
 11
83.0
 21
633.5
 31
0.0
  0
LINE
  8
LAYER1
 10
70.0
 20
640.0
 30
0.0
 11
70.0
 21
633.5
 31
0.0
  0
LINE
  8
LAYER1
 10
80.0
 20
640.0
 30
0.0
 11
80.0
 21
633.5
 31
0.0
  0
LINE
  8
LAYER1
 10
80.0
 20
633.5
 30
0.0
 11
83.0
 21
633.5
 31
0.0
  0
LINE
  8
LAYER1
 10
67.0
 20
633.5
 30
0.0
 11
70.0
 21
633.5
 31
0.0
  0
LINE
  8
LAYER1
 10
117.0
 20
625.5
 30
0.0
 11
133.0
 21
625.5
 31
0.0
  0
LINE
  8
LAYER1
 10
120.0
 20
640.0
 30
0.0
 11
130.0
 21
640.0
 31
0.0
  0
LINE
  8
LAYER1
 10
117.0
 20
625.5
 30
0.0
 11
117.0
 21
633.5
 31
0.0
  0
LINE
  8
LAYER1
 10
133.0
 20
625.5
 30
0.0
 11
133.0
 21
633.5
 31
0.0
  0
LINE
  8
LAYER1
 10
120.0
 20
640.0
 30
0.0
 11
120.0
 21
633.5
 31
0.0
  0
LINE
  8
LAYER1
 10
130.0
 20
640.0
 30
0.0
 11
130.0
 21
633.5
 31
0.0
  0
LINE
  8
LAYER1
 10
130.0
 20
633.5
 30
0.0
 11
133.0
 21
633.5
 31
0.0
  0
LINE
  8
LAYER1
 10
117.0
 20
633.5
 30
0.0
 11
120.0
 21
633.5
 31
0.0
  0
LINE
  8
LAYER1
 10
217.0
 20
625.5
 30
0.0
 11
233.0
 21
625.5
 31
0.0
  0
LINE
  8
LAYER1
 10
220.0
 20
640.0
 30
0.0
 11
230.0
 21
640.0
 31
0.0
  0
LINE
  8
LAYER1
 10
217.0
 20
625.5
 30
0.0
 11
217.0
 21
633.5
 31
0.0
  0
LINE
  8
LAYER1
 10
233.0
 20
625.5
 30
0.0
 11
233.0
 21
633.5
 31
0.0
  0
LINE
  8
LAYER1
 10
220.0
 20
640.0
 30
0.0
 11
220.0
 21
633.5
 31
0.0
  0
LINE
  8
LAYER1
 10
230.0
 20
640.0
 30
0.0
 11
230.0
 21
633.5
 31
0.0
  0
LINE
  8
LAYER1
 10
230.0
 20
633.5
 30
0.0
 11
233.0
 21
633.5
 31
0.0
  0
LINE
  8
LAYER1
 10
217.0
 20
633.5
 30
0.0
 11
220.0
 21
633.5
 31
0.0
  0
LINE
  8
LAYER1
 10
317.0
 20
625.5
 30
0.0
 11
333.0
 21
625.5
 31
0.0
  0
LINE
  8
LAYER1
 10
320.0
 20
640.0
 30
0.0
 11
330.0
 21
640.0
 31
0.0
  0
LINE
  8
LAYER1
 10
317.0
 20
625.5
 30
0.0
 11
317.0
 21
633.5
 31
0.0
  0
LINE
  8
LAYER1
 10
333.0
 20
625.5
 30
0.0
 11
333.0
 21
633.5
 31
0.0
  0
LINE
  8
LAYER1
 10
320.0
 20
640.0
 30
0.0
 11
320.0
 21
633.5
 31
0.0
  0
LINE
  8
LAYER1
 10
330.0
 20
640.0
 30
0.0
 11
330.0
 21
633.5
 31
0.0
  0
LINE
  8
LAYER1
 10
330.0
 20
633.5
 30
0.0
 11
333.0
 21
633.5
 31
0.0
  0
LINE
  8
LAYER1
 10
317.0
 20
633.5
 30
0.0
 11
320.0
 21
633.5
 31
0.0
  0
LINE
  8
LAYER1
 10
367.0
 20
625.5
 30
0.0
 11
383.0
 21
625.5
 31
0.0
  0
LINE
  8
LAYER1
 10
370.0
 20
640.0
 30
0.0
 11
380.0
 21
640.0
 31
0.0
  0
LINE
  8
LAYER1
 10
367.0
 20
625.5
 30
0.0
 11
367.0
 21
633.5
 31
0.0
  0
LINE
  8
LAYER1
 10
383.0
 20
625.5
 30
0.0
 11
383.0
 21
633.5
 31
0.0
  0
LINE
  8
LAYER1
 10
370.0
 20
640.0
 30
0.0
 11
370.0
 21
633.5
 31
0.0
  0
LINE
  8
LAYER1
 10
380.0
 20
640.0
 30
0.0
 11
380.0
 21
633.5
 31
0.0
  0
LINE
  8
LAYER1
 10
380.0
 20
633.5
 30
0.0
 11
383.0
 21
633.5
 31
0.0
  0
LINE
  8
LAYER1
 10
367.0
 20
633.5
 30
0.0
 11
370.0
 21
633.5
 31
0.0
  0
POINT
  8
LAYER1
 10
25.0
 20
625.5
 30
0.0
  0
POINT
  8
LAYER1
 10
75.0
 20
625.5
 30
0.0
  0
POINT
  8
LAYER1
 10
125.0
 20
625.5
 30
0.0
  0
POINT
  8
LAYER1
 10
175.0
 20
625.5
 30
0.0
  0
POINT
  8
LAYER1
 10
225.0
 20
625.5
 30
0.0
  0
POINT
  8
LAYER1
 10
275.0
 20
625.5
 30
0.0
  0
POINT
  8
LAYER1
 10
325.0
 20
625.5
 30
0.0
  0
POINT
  8
LAYER1
 10
375.0
 20
625.5
 30
0.0
  0
LINE
  8
LAYER1
 10
267.0
 20
625.5
 30
0.0
 11
283.0
 21
625.5
 31
0.0
  0
LINE
  8
LAYER1
 10
270.0
 20
640.0
 30
0.0
 11
280.0
 21
640.0
 31
0.0
  0
LINE
  8
LAYER1
 10
267.0
 20
625.5
 30
0.0
 11
267.0
 21
633.5
 31
0.0
  0
LINE
  8
LAYER1
 10
283.0
 20
625.5
 30
0.0
 11
283.0
 21
633.5
 31
0.0
  0
LINE
  8
LAYER1
 10
270.0
 20
640.0
 30
0.0
 11
270.0
 21
633.5
 31
0.0
  0
LINE
  8
LAYER1
 10
280.0
 20
640.0
 30
0.0
 11
280.0
 21
633.5
 31
0.0
  0
LINE
  8
LAYER1
 10
280.0
 20
633.5
 30
0.0
 11
283.0
 21
633.5
 31
0.0
  0
LINE
  8
LAYER1
 10
267.0
 20
633.5
 30
0.0
 11
270.0
 21
633.5
 31
0.0
  0
LINE
  8
LAYER1
 10
167.0
 20
625.5
 30
0.0
 11
183.0
 21
625.5
 31
0.0
  0
LINE
  8
LAYER1
 10
170.0
 20
640.0
 30
0.0
 11
180.0
 21
640.0
 31
0.0
  0
LINE
  8
LAYER1
 10
167.0
 20
625.5
 30
0.0
 11
167.0
 21
633.5
 31
0.0
  0
LINE
  8
LAYER1
 10
183.0
 20
625.5
 30
0.0
 11
183.0
 21
633.5
 31
0.0
  0
LINE
  8
LAYER1
 10
170.0
 20
640.0
 30
0.0
 11
170.0
 21
633.5
 31
0.0
  0
LINE
  8
LAYER1
 10
180.0
 20
640.0
 30
0.0
 11
180.0
 21
633.5
 31
0.0
  0
LINE
  8
LAYER1
 10
180.0
 20
633.5
 30
0.0
 11
183.0
 21
633.5
 31
0.0
  0
LINE
  8
LAYER1
 10
167.0
 20
633.5
 30
0.0
 11
170.0
 21
633.5
 31
0.0
  0
POLYLINE
  8
LAYER1
 66
     1
 10
0.0
 20
0.0
 30
0.0
 70
     1
  0
VERTEX
  8
LAYER1
 10
35.0
 20
0.0
 42
0.0
  0
VERTEX
  8
LAYER1
 10
365.0
 20
0.0
 42
0.0
  0
VERTEX
  8
LAYER1
 10
365.0
 20
12.0
 42
0.0
  0
VERTEX
  8
LAYER1
 10
35.0
 20
12.0
 42
0.0
  0
SEQEND
  0
POLYLINE
  8
LAYER1
 66
     1
 10
0.0
 20
0.0
 30
0.0
 70
     1
  0
VERTEX
  8
LAYER1
 10
34.6
 20
0.0
 42
0.0
  0
VERTEX
  8
LAYER1
 10
365.4
 20
0.0
 42
0.0
  0
VERTEX
  8
LAYER1
 10
365.4
 20
600.0
 42
0.0
  0
VERTEX
  8
LAYER1
 10
34.6
 20
600.0
 42
0.0
  0
SEQEND
  0
POLYLINE
  8
LAYER1
 66
     1
 10
0.0
 20
0.0
 30
0.0
 70
     1
  0
VERTEX
  8
LAYER1
 10
35.0
 20
588.0
 42
0.0
  0
VERTEX
  8
LAYER1
 10
365.0
 20
588.0
 42
0.0
  0
VERTEX
  8
LAYER1
 10
365.0
 20
600.0
 42
0.0
  0
VERTEX
  8
LAYER1
 10
35.0
 20
600.0
 42
0.0
  0
SEQEND
  0
POLYLINE
  8
LAYER1
 66
     1
 10
0.0
 20
0.0
 30
0.0
 70
     1
  0
VERTEX
  8
LAYER1
 10
34.6
 20
12.0
 42
0.0
  0
VERTEX
  8
LAYER1
 10
94.6
 20
12.0
 42
0.0
  0
VERTEX
  8
LAYER1
 10
94.6
 20
588.0
 42
0.0
  0
VERTEX
  8
LAYER1
 10
34.6
 20
588.0
 42
0.0
  0
SEQEND
  0
POLYLINE
  8
LAYER1
 66
     1
 10
0.0
 20
0.0
 30
0.0
 70
     1
  0
VERTEX
  8
LAYER1
 10
49.6
 20
12.0
 42
0.0
  0
VERTEX
  8
LAYER1
 10
79.6
 20
12.0
 42
0.0
  0
VERTEX
  8
LAYER1
 10
79.6
 20
588.0
 42
0.0
  0
VERTEX
  8
LAYER1
 10
49.6
 20
588.0
 42
0.0
  0
SEQEND
  0
POLYLINE
  8
LAYER1
 66
     1
 10
0.0
 20
0.0
 30
0.0
 70
     1
  0
VERTEX
  8
LAYER1
 10
305.4
 20
12.0
 42
0.0
  0
VERTEX
  8
LAYER1
 10
365.4
 20
12.0
 42
0.0
  0
VERTEX
  8
LAYER1
 10
365.4
 20
588.0
 42
0.0
  0
VERTEX
  8
LAYER1
 10
305.4
 20
588.0
 42
0.0
  0
SEQEND
  0
POLYLINE
  8
LAYER1
 66
     1
 10
0.0
 20
0.0
 30
0.0
 70
     1
  0
VERTEX
  8
LAYER1
 10
320.4
 20
12.0
 42
0.0
  0
VERTEX
  8
LAYER1
 10
350.4
 20
12.0
 42
0.0
  0
VERTEX
  8
LAYER1
 10
350.4
 20
588.0
 42
0.0
  0
VERTEX
  8
LAYER1
 10
320.4
 20
588.0
 42
0.0
  0
SEQEND
  0
POLYLINE
  8
LAYER1
 66
     1
 10
0.0
 20
0.0
 30
0.0
 70
     1
  0
VERTEX
  8
LAYER1
 10
95.0
 20
12.0
 42
0.0
  0
VERTEX
  8
LAYER1
 10
305.0
 20
12.0
 42
0.0
  0
VERTEX
  8
LAYER1
 10
305.0
 20
71.9
 42
0.0
  0
VERTEX
  8
LAYER1
 10
95.0
 20
71.9
 42
0.0
  0
SEQEND
  0
POLYLINE
  8
LAYER1
 66
     1
 10
0.0
 20
0.0
 30
0.0
 70
     1
  0
VERTEX
  8
LAYER1
 10
95.0
 20
26.95
 42
0.0
  0
VERTEX
  8
LAYER1
 10
305.0
 20
26.95
 42
0.0
  0
VERTEX
  8
LAYER1
 10
305.0
 20
56.95
 42
0.0
  0
VERTEX
  8
LAYER1
 10
95.0
 20
56.95
 42
0.0
  0
SEQEND
  0
POLYLINE
  8
LAYER1
 66
     1
 10
0.0
 20
0.0
 30
0.0
 70
     1
  0
VERTEX
  8
LAYER1
 10
95.0
 20
183.8
 42
0.0
  0
VERTEX
  8
LAYER1
 10
305.0
 20
183.8
 42
0.0
  0
VERTEX
  8
LAYER1
 10
305.0
 20
243.7
 42
0.0
  0
VERTEX
  8
LAYER1
 10
95.0
 20
243.7
 42
0.0
  0
SEQEND
  0
POLYLINE
  8
LAYER1
 66
     1
 10
0.0
 20
0.0
 30
0.0
 70
     1
  0
VERTEX
  8
LAYER1
 10
95.0
 20
198.75
 42
0.0
  0
VERTEX
  8
LAYER1
 10
305.0
 20
198.75
 42
0.0
  0
VERTEX
  8
LAYER1
 10
305.0
 20
228.75
 42
0.0
  0
VERTEX
  8
LAYER1
 10
95.0
 20
228.75
 42
0.0
  0
SEQEND
  0
POLYLINE
  8
LAYER1
 66
     1
 10
0.0
 20
0.0
 30
0.0
 70
     1
  0
VERTEX
  8
LAYER1
 10
95.0
 20
356.299999999996
 42
0.0
  0
VERTEX
  8
LAYER1
 10
305.0
 20
356.299999999996
 42
0.0
  0
VERTEX
  8
LAYER1
 10
305.0
 20
416.199999999996
 42
0.0
  0
VERTEX
  8
LAYER1
 10
95.0
 20
416.199999999996
 42
0.0
  0
SEQEND
  0
POLYLINE
  8
LAYER1
 66
     1
 10
0.0
 20
0.0
 30
0.0
 70
     1
  0
VERTEX
  8
LAYER1
 10
95.0
 20
371.249999999996
 42
0.0
  0
VERTEX
  8
LAYER1
 10
305.0
 20
371.249999999996
 42
0.0
  0
VERTEX
  8
LAYER1
 10
305.0
 20
401.249999999996
 42
0.0
  0
VERTEX
  8
LAYER1
 10
95.0
 20
401.249999999996
 42
0.0
  0
SEQEND
  0
POLYLINE
  8
LAYER1
 66
     1
 10
0.0
 20
0.0
 30
0.0
 70
     1
  0
VERTEX
  8
LAYER1
 10
95.0
 20
528.099999999996
 42
0.0
  0
VERTEX
  8
LAYER1
 10
305.0
 20
528.099999999996
 42
0.0
  0
VERTEX
  8
LAYER1
 10
305.0
 20
587.999999999996
 42
0.0
  0
VERTEX
  8
LAYER1
 10
95.0
 20
587.999999999996
 42
0.0
  0
SEQEND
  0
POLYLINE
  8
LAYER1
 66
     1
 10
0.0
 20
0.0
 30
0.0
 70
     1
  0
VERTEX
  8
LAYER1
 10
95.0
 20
543.049999999996
 42
0.0
  0
VERTEX
  8
LAYER1
 10
305.0
 20
543.049999999996
 42
0.0
  0
VERTEX
  8
LAYER1
 10
305.0
 20
573.049999999996
 42
0.0
  0
VERTEX
  8
LAYER1
 10
95.0
 20
573.049999999996
 42
0.0
  0
SEQEND
  0
CIRCLE
  8
LAYER1
 10
49.6
 20
198.75
 30
0.0
 40
5.5
  0
CIRCLE
  8
LAYER1
 10
49.6
 20
198.75
 30
0.0
 40
0.05
  0
CIRCLE
  8
LAYER1
 10
200.0
 20
198.750000000001
 30
0.0
 40
5.5
  0
CIRCLE
  8
LAYER1
 10
200.0
 20
198.750000000001
 30
0.0
 40
0.05
  0
CIRCLE
  8
LAYER1
 10
200.0
 20
198.750000000001
 30
0.0
 40
3.15
  0
CIRCLE
  8
LAYER1
 10
350.4
 20
198.75
 30
0.0
 40
5.5
  0
CIRCLE
  8
LAYER1
 10
350.4
 20
198.75
 30
0.0
 40
0.05
  0
CIRCLE
  8
LAYER1
 10
49.6
 20
198.75
 30
0.0
 40
3.15
  0
CIRCLE
  8
LAYER1
 10
350.4
 20
198.75
 30
0.0
 40
3.15
  0
CIRCLE
  8
LAYER1
 10
49.6
 20
371.249999999997
 30
0.0
 40
5.5
  0
CIRCLE
  8
LAYER1
 10
49.6
 20
371.249999999997
 30
0.0
 40
0.05
  0
CIRCLE
  8
LAYER1
 10
200.0
 20
371.249999999997
 30
0.0
 40
5.5
  0
CIRCLE
  8
LAYER1
 10
200.0
 20
371.249999999997
 30
0.0
 40
0.05
  0
CIRCLE
  8
LAYER1
 10
200.0
 20
371.249999999997
 30
0.0
 40
3.15
  0
CIRCLE
  8
LAYER1
 10
350.4
 20
371.249999999997
 30
0.0
 40
5.5
  0
CIRCLE
  8
LAYER1
 10
350.4
 20
371.249999999997
 30
0.0
 40
0.05
  0
CIRCLE
  8
LAYER1
 10
49.6
 20
371.249999999997
 30
0.0
 40
3.15
  0
CIRCLE
  8
LAYER1
 10
350.4
 20
371.249999999997
 30
0.0
 40
3.15
  0
CIRCLE
  8
LAYER1
 10
49.6
 20
543.050000000004
 30
0.0
 40
5.5
  0
CIRCLE
  8
LAYER1
 10
49.6
 20
543.050000000004
 30
0.0
 40
0.05
  0
CIRCLE
  8
LAYER1
 10
200.0
 20
543.050000000004
 30
0.0
 40
5.5
  0
CIRCLE
  8
LAYER1
 10
200.0
 20
543.050000000004
 30
0.0
 40
0.05
  0
CIRCLE
  8
LAYER1
 10
200.0
 20
543.050000000004
 30
0.0
 40
3.15
  0
CIRCLE
  8
LAYER1
 10
350.4
 20
543.050000000004
 30
0.0
 40
5.5
  0
CIRCLE
  8
LAYER1
 10
350.4
 20
543.050000000004
 30
0.0
 40
0.05
  0
CIRCLE
  8
LAYER1
 10
49.6
 20
543.050000000004
 30
0.0
 40
3.15
  0
CIRCLE
  8
LAYER1
 10
350.4
 20
543.050000000004
 30
0.0
 40
3.15
  0
ENDSEC
  0
EOF
